ギャプラス スペシャルフラッグ カンペ 簡易版

スペシャルフラッグ 位置 一覧表 (全部)
スペシャルフラッグ 位置 一覧表 (下二段のみ抜粋)
スペシャルフラッグ 位置 一覧表 (最下段のみ抜粋)
スペシャルフラッグ 位置 一覧表 (下二段のみ抜粋+クイーンも撃つ)
スペシャルフラッグ 位置 一覧表 (最下段のみ抜粋+クイーンも撃つ)

「スペシャルフラッグ 位置 一覧表」を、通算PARSEC 256 まで展開したもの
スペシャルフラッグ カンペ 簡易版
スペシャルフラッグ カンペ 詳細版
スペシャルフラッグ カンペ 簡易版 EXCELシート (PDF)
スペシャルフラッグ カンペ 詳細版 EXCELシート (PDF) (CSV) (TXT)

かにかにクラブ > ギャプラス > スペシャルフラッグ カンペ 簡易版

スペシャルフラッグ 位置 一覧表 (全部)の表のうち、
「倒す前の点数で探す (待機中を直接倒す場合)」の列だけを抜粋し、
通算PARSEC 256まで真っすぐに展開した。

PARSECスペシャルフラッグブラスターヘッド
01
1巡目
xx----------------xxファランクス
131415161718--------
------------09101112
19000102030405060708
02
1巡目
xx----------------xxファランクス
12131415161718------
08------------091011
--190001020304050607
(03)
1巡目
CHALLENGING STAGE(なし)
[04]
1巡目
REVERSE SCROLLING STAGE(なし)
05
1巡目
xx----------------xxハイパー
09101112131415161718
05060708------------
--------190001020304
06
1巡目
xx18--------------xxハイパー
--091011121314151617
0405060708----------
----------1900010203
07
1巡目
xx1718------------xxファランクス
----0910111213141516
030405060708--------
------------19000102
(08)
1巡目
CHALLENGING STAGE(なし)
[09]
1巡目
REVERSE SCROLLING STAGE(なし)
10
1巡目
xx1415------------xxサイクロン
----------0910111213
000102030405060708--
161718------------19
11
1巡目
xx1314------------xxハイパー
------------09101112
19000102030405060708
15161718------------
12
1巡目
xx1213------------xxファランクス
08------------091011
--190001020304050607
1415161718----------
(13)
1巡目
CHALLENGING STAGE(なし)
14
1巡目
xx1011------------xx(なし)
060708------------09
------19000102030405
12131415161718------
15
1巡目
xx0910------------xxハイパー
05060708------------
--------190001020304
1112131415161718----
16
1巡目
xx--09------------xxエレファント
0405060708----------
----------1900010203
101112131415161718--
17
1巡目
xx----------------xxファランクス
030405060708--------
------------19000102
09101112131415161718
(18)
1巡目
CHALLENGING STAGE(なし)
[19]
1巡目
REVERSE SCROLLING STAGE(なし)
20
1巡目
xx----------------xxサイクロン
000102030405060708--
161718------------19
------09101112131415
21
1巡目
xx----------------xxハイパー
19000102030405060708
15161718------------
--------091011121314
22
1巡目
xx08--------------xxファランクス
--190001020304050607
1415161718----------
----------0910111213
(23)
1巡目
CHALLENGING STAGE(なし)
24
1巡目
xx0607------------xx(なし)
------19000102030405
12131415161718------
08------------091011
25
1巡目
xx0506------------xxハイパー
--------190001020304
1112131415161718----
0708------------0910
26
1巡目
xx0405------------xxエレファント
----------1900010203
101112131415161718--
060708------------09
27
1巡目
xx0304------------xxファランクス
------------19000102
09101112131415161718
05060708------------
(28)
1巡目
CHALLENGING STAGE(なし)
[29]
1巡目
REVERSE SCROLLING STAGE(なし)
30
1巡目
xx0001------------xxサイクロン
161718------------19
------09101112131415
02030405060708------
31
1巡目
xx1900------------xxエレファント
+
シップ変身
15161718------------
--------091011121314
0102030405060708----
32
1巡目
xx--19------------xxファランクス
1415161718----------
----------0910111213
000102030405060708--
(33)
1巡目
CHALLENGING STAGE(なし)
34
1巡目
xx----------------xx(なし)
12131415161718------
08------------091011
--190001020304050607
35
1巡目
xx----------------xxハイパー
1112131415161718----
0708------------0910
----1900010203040506
36
1巡目
xx----------------xxサイドワインダー
101112131415161718--
060708------------09
------19000102030405
37
1巡目
xx----------------xxファランクス
09101112131415161718
05060708------------
--------190001020304
(38)
1巡目
CHALLENGING STAGE(なし)
[39]
1巡目
REVERSE SCROLLING STAGE(なし)
40
1巡目
xx1617------------xxスターダスト
------09101112131415
02030405060708------
18------------190001
41
1巡目
xx1516------------xxハイパー
--------091011121314
0102030405060708----
1718------------1900
42
1巡目
xx1415------------xxファランクス
----------0910111213
000102030405060708--
161718------------19
(43)
1巡目
CHALLENGING STAGE(なし)
44
1巡目
xx1213------------xx(なし)
08------------091011
--190001020304050607
1415161718----------
45
1巡目
xx1112------------xxハイパー
0708------------0910
----1900010203040506
131415161718--------
46
1巡目
xx1011------------xxエレファント
+
シップ変身
060708------------09
------19000102030405
12131415161718------
47
1巡目
xx0910------------xxファランクス
05060708------------
--------190001020304
1112131415161718----
(48)
1巡目
CHALLENGING STAGE(なし)
[49]
1巡目
REVERSE SCROLLING STAGE(なし)
50
1巡目
xx----------------xxサイクロン
02030405060708------
18------------190001
--091011121314151617
51
1巡目
xx----------------xxハイパー
0102030405060708----
1718------------1900
----0910111213141516
52
1巡目
xx----------------xxファランクス
000102030405060708--
161718------------19
------09101112131415
(53)
1巡目
CHALLENGING STAGE(なし)
54
1巡目
xx08--------------xx(なし)
--190001020304050607
1415161718----------
----------0910111213
55
1巡目
xx0708------------xxハイパー
----1900010203040506
131415161718--------
------------09101112
56
1巡目
xx0607------------xxスターダスト
------19000102030405
12131415161718------
08------------091011
57
1巡目
xx0506------------xxファランクス
--------190001020304
1112131415161718----
0708------------0910
(58)
1巡目
CHALLENGING STAGE(なし)
[59]
1巡目
REVERSE SCROLLING STAGE(なし)
60
1巡目
xx0203------------xx(なし)
18------------190001
--091011121314151617
0405060708----------
61
1巡目
xx1900------------xxエレファント
+
シップ変身
15161718------------
--------091011121314
0102030405060708----
62
1巡目
xx--19------------xxファランクス
1415161718----------
----------0910111213
000102030405060708--
(63)
1巡目
CHALLENGING STAGE(なし)
64
1巡目
xx----------------xx(なし)
12131415161718------
08------------091011
--190001020304050607
65
1巡目
xx----------------xxハイパー
1112131415161718----
0708------------0910
----1900010203040506
66
1巡目
xx----------------xxサイドワインダー
101112131415161718--
060708------------09
------19000102030405
67
1巡目
xx----------------xxファランクス
09101112131415161718
05060708------------
--------190001020304
(68)
1巡目
CHALLENGING STAGE(なし)
[69]
1巡目
REVERSE SCROLLING STAGE(なし)
70
1巡目
xx1617------------xxスターダスト
------09101112131415
02030405060708------
18------------190001
71
1巡目
xx1516------------xxハイパー
--------091011121314
0102030405060708----
1718------------1900
72
1巡目
xx1415------------xxファランクス
----------0910111213
000102030405060708--
161718------------19
(73)
1巡目
CHALLENGING STAGE(なし)
74
1巡目
xx1213------------xx(なし)
08------------091011
--190001020304050607
1415161718----------
75
1巡目
xx1112------------xxハイパー
0708------------0910
----1900010203040506
131415161718--------
76
1巡目
xx1011------------xxエレファント
+
シップ変身
060708------------09
------19000102030405
12131415161718------
77
1巡目
xx0910------------xxファランクス
05060708------------
--------190001020304
1112131415161718----
(78)
1巡目
CHALLENGING STAGE(なし)
[79]
1巡目
REVERSE SCROLLING STAGE(なし)
80
1巡目
xx----------------xxサイクロン
02030405060708------
18------------190001
--091011121314151617
81
1巡目
xx----------------xxハイパー
0102030405060708----
1718------------1900
----0910111213141516
82
1巡目
xx----------------xxファランクス
000102030405060708--
161718------------19
------09101112131415
(83)
1巡目
CHALLENGING STAGE(なし)
84
1巡目
xx08--------------xx(なし)
--190001020304050607
1415161718----------
----------0910111213
85
1巡目
xx0708------------xxハイパー
----1900010203040506
131415161718--------
------------09101112
86
1巡目
xx0607------------xxスターダスト
------19000102030405
12131415161718------
08------------091011
87
1巡目
xx0506------------xxファランクス
--------190001020304
1112131415161718----
0708------------0910
(88)
1巡目
CHALLENGING STAGE(なし)
[89]
1巡目
REVERSE SCROLLING STAGE(なし)
90
1巡目
xx0203------------xx(なし)
18------------190001
--091011121314151617
0405060708----------
91
1巡目
xx1900------------xxエレファント
+
シップ変身
15161718------------
--------091011121314
0102030405060708----
92
1巡目
xx--19------------xxファランクス
1415161718----------
----------0910111213
000102030405060708--
(93)
1巡目
CHALLENGING STAGE(なし)
94
1巡目
xx----------------xx(なし)
12131415161718------
08------------091011
--190001020304050607
95
1巡目
xx----------------xxハイパー
1112131415161718----
0708------------0910
----1900010203040506
96
1巡目
xx----------------xxサイドワインダー
101112131415161718--
060708------------09
------19000102030405
97
1巡目
xx----------------xxファランクス
09101112131415161718
05060708------------
--------190001020304
(98)
1巡目
CHALLENGING STAGE(なし)
[99]
1巡目
REVERSE SCROLLING STAGE(なし)
01
2巡目
xx1617------------xxスターダスト
------09101112131415
02030405060708------
18------------190001
02
2巡目
xx1516------------xxハイパー
--------091011121314
0102030405060708----
1718------------1900
03
2巡目
xx1415------------xxファランクス
----------0910111213
000102030405060708--
161718------------19
(04)
2巡目
CHALLENGING STAGE(なし)
05
2巡目
xx1213------------xx(なし)
08------------091011
--190001020304050607
1415161718----------
06
2巡目
xx1112------------xxハイパー
0708------------0910
----1900010203040506
131415161718--------
07
2巡目
xx1011------------xxエレファント
+
シップ変身
060708------------09
------19000102030405
12131415161718------
08
2巡目
xx0910------------xxファランクス
05060708------------
--------190001020304
1112131415161718----
(09)
2巡目
CHALLENGING STAGE(なし)
[10]
2巡目
REVERSE SCROLLING STAGE(なし)
11
2巡目
xx----------------xxサイクロン
02030405060708------
18------------190001
--091011121314151617
12
2巡目
xx----------------xxハイパー
0102030405060708----
1718------------1900
----0910111213141516
13
2巡目
xx----------------xxファランクス
000102030405060708--
161718------------19
------09101112131415
(14)
2巡目
CHALLENGING STAGE(なし)
15
2巡目
xx08--------------xx(なし)
--190001020304050607
1415161718----------
----------0910111213
16
2巡目
xx0708------------xxハイパー
----1900010203040506
131415161718--------
------------09101112
17
2巡目
xx0607------------xxスターダスト
------19000102030405
12131415161718------
08------------091011
18
2巡目
xx0506------------xxファランクス
--------190001020304
1112131415161718----
0708------------0910
(19)
2巡目
CHALLENGING STAGE(なし)
[20]
2巡目
REVERSE SCROLLING STAGE(なし)
21
2巡目
xx0203------------xx(なし)
18------------190001
--091011121314151617
0405060708----------
22
2巡目
xx1900------------xxエレファント
+
シップ変身
15161718------------
--------091011121314
0102030405060708----
23
2巡目
xx--19------------xxファランクス
1415161718----------
----------0910111213
000102030405060708--
(24)
2巡目
CHALLENGING STAGE(なし)
25
2巡目
xx----------------xx(なし)
12131415161718------
08------------091011
--190001020304050607
26
2巡目
xx----------------xxハイパー
1112131415161718----
0708------------0910
----1900010203040506
27
2巡目
xx----------------xxサイドワインダー
101112131415161718--
060708------------09
------19000102030405
28
2巡目
xx----------------xxファランクス
09101112131415161718
05060708------------
--------190001020304
(29)
2巡目
CHALLENGING STAGE(なし)
[30]
2巡目
REVERSE SCROLLING STAGE(なし)
31
2巡目
xx1617------------xxスターダスト
------09101112131415
02030405060708------
18------------190001
32
2巡目
xx1516------------xxハイパー
--------091011121314
0102030405060708----
1718------------1900
33
2巡目
xx1415------------xxファランクス
----------0910111213
000102030405060708--
161718------------19
(34)
2巡目
CHALLENGING STAGE(なし)
35
2巡目
xx1213------------xx(なし)
08------------091011
--190001020304050607
1415161718----------
36
2巡目
xx1112------------xxハイパー
0708------------0910
----1900010203040506
131415161718--------
37
2巡目
xx1011------------xxエレファント
+
シップ変身
060708------------09
------19000102030405
12131415161718------
38
2巡目
xx0910------------xxファランクス
05060708------------
--------190001020304
1112131415161718----
(39)
2巡目
CHALLENGING STAGE(なし)
[40]
2巡目
REVERSE SCROLLING STAGE(なし)
41
2巡目
xx----------------xxサイクロン
02030405060708------
18------------190001
--091011121314151617
42
2巡目
xx----------------xxハイパー
0102030405060708----
1718------------1900
----0910111213141516
43
2巡目
xx----------------xxファランクス
000102030405060708--
161718------------19
------09101112131415
(44)
2巡目
CHALLENGING STAGE(なし)
45
2巡目
xx08--------------xx(なし)
--190001020304050607
1415161718----------
----------0910111213
46
2巡目
xx0708------------xxハイパー
----1900010203040506
131415161718--------
------------09101112
47
2巡目
xx0607------------xxスターダスト
------19000102030405
12131415161718------
08------------091011
48
2巡目
xx0506------------xxファランクス
--------190001020304
1112131415161718----
0708------------0910
(49)
2巡目
CHALLENGING STAGE(なし)
[50]
2巡目
REVERSE SCROLLING STAGE(なし)
51
2巡目
xx0203------------xx(なし)
18------------190001
--091011121314151617
0405060708----------
52
2巡目
xx1900------------xxエレファント
+
シップ変身
15161718------------
--------091011121314
0102030405060708----
53
2巡目
xx--19------------xxファランクス
1415161718----------
----------0910111213
000102030405060708--
(54)
2巡目
CHALLENGING STAGE(なし)
55
2巡目
xx----------------xx(なし)
12131415161718------
08------------091011
--190001020304050607
56
2巡目
xx----------------xxハイパー
1112131415161718----
0708------------0910
----1900010203040506
57
2巡目
xx----------------xxサイドワインダー
101112131415161718--
060708------------09
------19000102030405
58
2巡目
xx----------------xxファランクス
09101112131415161718
05060708------------
--------190001020304
(59)
2巡目
CHALLENGING STAGE(なし)
[60]
2巡目
REVERSE SCROLLING STAGE(なし)
61
2巡目
xx1617------------xxスターダスト
------09101112131415
02030405060708------
18------------190001
62
2巡目
xx1516------------xxハイパー
--------091011121314
0102030405060708----
1718------------1900
63
2巡目
xx1415------------xxファランクス
----------0910111213
000102030405060708--
161718------------19
(64)
2巡目
CHALLENGING STAGE(なし)
65
2巡目
xx1213------------xx(なし)
08------------091011
--190001020304050607
1415161718----------
66
2巡目
xx1112------------xxハイパー
0708------------0910
----1900010203040506
131415161718--------
67
2巡目
xx1011------------xxエレファント
+
シップ変身
060708------------09
------19000102030405
12131415161718------
68
2巡目
xx0910------------xxファランクス
05060708------------
--------190001020304
1112131415161718----
(69)
2巡目
CHALLENGING STAGE(なし)
[70]
2巡目
REVERSE SCROLLING STAGE(なし)
71
2巡目
xx----------------xxサイクロン
02030405060708------
18------------190001
--091011121314151617
72
2巡目
xx----------------xxハイパー
0102030405060708----
1718------------1900
----0910111213141516
73
2巡目
xx----------------xxファランクス
000102030405060708--
161718------------19
------09101112131415
(74)
2巡目
CHALLENGING STAGE(なし)
75
2巡目
xx08--------------xx(なし)
--190001020304050607
1415161718----------
----------0910111213
76
2巡目
xx0708------------xxハイパー
----1900010203040506
131415161718--------
------------09101112
77
2巡目
xx0607------------xxスターダスト
------19000102030405
12131415161718------
08------------091011
78
2巡目
xx0506------------xxファランクス
--------190001020304
1112131415161718----
0708------------0910
(79)
2巡目
CHALLENGING STAGE(なし)
[80]
2巡目
REVERSE SCROLLING STAGE(なし)
81
2巡目
xx0203------------xx(なし)
18------------190001
--091011121314151617
0405060708----------
82
2巡目
xx1900------------xxエレファント
+
シップ変身
15161718------------
--------091011121314
0102030405060708----
83
2巡目
xx--19------------xxファランクス
1415161718----------
----------0910111213
000102030405060708--
(84)
2巡目
CHALLENGING STAGE(なし)
85
2巡目
xx----------------xx(なし)
12131415161718------
08------------091011
--190001020304050607
86
2巡目
xx----------------xxハイパー
1112131415161718----
0708------------0910
----1900010203040506
87
2巡目
xx----------------xxサイドワインダー
101112131415161718--
060708------------09
------19000102030405
88
2巡目
xx----------------xxファランクス
09101112131415161718
05060708------------
--------190001020304
(89)
2巡目
CHALLENGING STAGE(なし)
[90]
2巡目
REVERSE SCROLLING STAGE(なし)
91
2巡目
xx1617------------xxスターダスト
------09101112131415
02030405060708------
18------------190001
92
2巡目
xx1516------------xxハイパー
--------091011121314
0102030405060708----
1718------------1900
93
2巡目
xx1415------------xxファランクス
----------0910111213
000102030405060708--
161718------------19
(94)
2巡目
CHALLENGING STAGE(なし)
95
2巡目
xx1213------------xx(なし)
08------------091011
--190001020304050607
1415161718----------
96
2巡目
xx1112------------xxハイパー
0708------------0910
----1900010203040506
131415161718--------
97
2巡目
xx1011------------xxエレファント
+
シップ変身
060708------------09
------19000102030405
12131415161718------
98
2巡目
xx0910------------xxファランクス
05060708------------
--------190001020304
1112131415161718----
(99)
2巡目
CHALLENGING STAGE(なし)
[01]
3巡目
REVERSE SCROLLING STAGE(なし)
02
3巡目
xx----------------xxサイクロン
02030405060708------
18------------190001
--091011121314151617
03
3巡目
xx----------------xxハイパー
0102030405060708----
1718------------1900
----0910111213141516
04
3巡目
xx----------------xxファランクス
000102030405060708--
161718------------19
------09101112131415
(05)
3巡目
CHALLENGING STAGE(なし)
06
3巡目
xx08--------------xx(なし)
--190001020304050607
1415161718----------
----------0910111213
07
3巡目
xx0708------------xxハイパー
----1900010203040506
131415161718--------
------------09101112
08
3巡目
xx0607------------xxスターダスト
------19000102030405
12131415161718------
08------------091011
09
3巡目
xx0506------------xxファランクス
--------190001020304
1112131415161718----
0708------------0910
(10)
3巡目
CHALLENGING STAGE(なし)
[11]
3巡目
REVERSE SCROLLING STAGE(なし)
12
3巡目
xx0203------------xx(なし)
18------------190001
--091011121314151617
0405060708----------
13
3巡目
xx1900------------xxエレファント
+
シップ変身
15161718------------
--------091011121314
0102030405060708----
14
3巡目
xx--19------------xxファランクス
1415161718----------
----------0910111213
000102030405060708--
(15)
3巡目
CHALLENGING STAGE(なし)
16
3巡目
xx----------------xx(なし)
12131415161718------
08------------091011
--190001020304050607
17
3巡目
xx----------------xxハイパー
1112131415161718----
0708------------0910
----1900010203040506
18
3巡目
xx----------------xxサイドワインダー
101112131415161718--
060708------------09
------19000102030405
19
3巡目
xx----------------xxファランクス
09101112131415161718
05060708------------
--------190001020304
(20)
3巡目
CHALLENGING STAGE(なし)
[21]
3巡目
REVERSE SCROLLING STAGE(なし)
22
3巡目
xx1617------------xxスターダスト
------09101112131415
02030405060708------
18------------190001
23
3巡目
xx1516------------xxハイパー
--------091011121314
0102030405060708----
1718------------1900
24
3巡目
xx1415------------xxファランクス
----------0910111213
000102030405060708--
161718------------19
(25)
3巡目
CHALLENGING STAGE(なし)
26
3巡目
xx1213------------xx(なし)
08------------091011
--190001020304050607
1415161718----------
27
3巡目
xx1112------------xxハイパー
0708------------0910
----1900010203040506
131415161718--------
28
3巡目
xx1011------------xxエレファント
+
シップ変身
060708------------09
------19000102030405
12131415161718------
29
3巡目
xx0910------------xxファランクス
05060708------------
--------190001020304
1112131415161718----
(30)
3巡目
CHALLENGING STAGE(なし)
[31]
3巡目
REVERSE SCROLLING STAGE(なし)
32
3巡目
xx----------------xxサイクロン
02030405060708------
18------------190001
--091011121314151617
33
3巡目
xx----------------xxハイパー
0102030405060708----
1718------------1900
----0910111213141516
34
3巡目
xx----------------xxファランクス
000102030405060708--
161718------------19
------09101112131415
(35)
3巡目
CHALLENGING STAGE(なし)
36
3巡目
xx08--------------xx(なし)
--190001020304050607
1415161718----------
----------0910111213
37
3巡目
xx0708------------xxハイパー
----1900010203040506
131415161718--------
------------09101112
38
3巡目
xx0607------------xxスターダスト
------19000102030405
12131415161718------
08------------091011
39
3巡目
xx0506------------xxファランクス
--------190001020304
1112131415161718----
0708------------0910
(40)
3巡目
CHALLENGING STAGE(なし)
[41]
3巡目
REVERSE SCROLLING STAGE(なし)
42
3巡目
xx0203------------xx(なし)
18------------190001
--091011121314151617
0405060708----------
43
3巡目
xx1900------------xxエレファント
+
シップ変身
15161718------------
--------091011121314
0102030405060708----
44
3巡目
xx--19------------xxファランクス
1415161718----------
----------0910111213
000102030405060708--
(45)
3巡目
CHALLENGING STAGE(なし)
46
3巡目
xx----------------xx(なし)
12131415161718------
08------------091011
--190001020304050607
47
3巡目
xx----------------xxハイパー
1112131415161718----
0708------------0910
----1900010203040506
48
3巡目
xx----------------xxサイドワインダー
101112131415161718--
060708------------09
------19000102030405
49
3巡目
xx----------------xxファランクス
09101112131415161718
05060708------------
--------190001020304
(50)
3巡目
CHALLENGING STAGE(なし)
[51]
3巡目
REVERSE SCROLLING STAGE(なし)
52
3巡目
xx1617------------xxスターダスト
------09101112131415
02030405060708------
18------------190001
53
3巡目
xx1516------------xxハイパー
--------091011121314
0102030405060708----
1718------------1900
54
3巡目
xx1415------------xxファランクス
----------0910111213
000102030405060708--
161718------------19
(55)
3巡目
CHALLENGING STAGE(なし)
56
3巡目
xx1213------------xx(なし)
08------------091011
--190001020304050607
1415161718----------
57
3巡目
xx1112------------xxハイパー
0708------------0910
----1900010203040506
131415161718--------
58
3巡目
xx1011------------xxエレファント
+
シップ変身
060708------------09
------19000102030405
12131415161718------
 
1巡目 PARSEC 01 に戻る

(C) 2000-2017 KANIKANI